  0
SECTION
  2
HEADER
  9
$ACADVER
  1
AC1015
  9
$ACADMAINTVER
 70
     6
  9
$DWGCODEPAGE
  3
ANSI_1254
  9
$INSBASE
 10
0.0
 20
0.0
 30
0.0
  9
$EXTMIN
 10
0.0
 20
0.0
 30
0.0
  9
$EXTMAX
 10
279.4
 20
215.9
 30
0.0
  9
$LIMMIN
 10
0.0
 20
0.0
  9
$LIMMAX
 10
279.4
 20
215.9
  9
$ORTHOMODE
 70
     0
  9
$REGENMODE
 70
     1
  9
$FILLMODE
 70
     1
  9
$QTEXTMODE
 70
     0
  9
$MIRRTEXT
 70
     1
  9
$LTSCALE
 40
1.0
  9
$ATTMODE
 70
     1
  9
$TEXTSIZE
 40
3.5
  9
$TRACEWID
 40
1.0
  9
$TEXTSTYLE
  7
Standard
  9
$CLAYER
  8
0
  9
$CELTYPE
  6
ByLayer
  9
$CECOLOR
 62
   256
  9
$CELTSCALE
 40
1.0
  9
$DISPSILH
 70
     0
  9
$DIMSCALE
 40
1.0
  9
$DIMASZ
 40
3.5
  9
$DIMEXO
 40
1.0
  9
$DIMDLI
 40
3.75
  9
$DIMRND
 40
0.0
  9
$DIMDLE
 40
0.0
  9
$DIMEXE
 40
1.0
  9
$DIMTP
 40
0.0
  9
$DIMTM
 40
0.0
  9
$DIMTXT
 40
3.5
  9
$DIMCEN
 40
2.5
  9
$DIMTSZ
 40
0.0
  9
$DIMTOL
 70
     0
  9
$DIMLIM
 70
     0
  9
$DIMTIH
 70
     1
  9
$DIMTOH
 70
     1
  9
$DIMSE1
 70
     0
  9
$DIMSE2
 70
     0
  9
$DIMTAD
 70
     1
  9
$DIMZIN
 70
     0
  9
$DIMBLK
  1

  9
$DIMASO
 70
     1
  9
$DIMSHO
 70
     1
  9
$DIMPOST
  1

  9
$DIMAPOST
  1

  9
$DIMALT
 70
     0
  9
$DIMALTD
 70
     3
  9
$DIMALTF
 40
0.0393700787
  9
$DIMLFAC
 40
1.0
  9
$DIMTOFL
 70
     1
  9
$DIMTVP
 40
0.0
  9
$DIMTIX
 70
     0
  9
$DIMSOXD
 70
     0
  9
$DIMSAH
 70
     0
  9
$DIMBLK1
  1

  9
$DIMBLK2
  1

  9
$DIMSTYLE
  2
ISO-25
  9
$DIMCLRD
 70
     0
  9
$DIMCLRE
 70
     0
  9
$DIMCLRT
 70
     0
  9
$DIMTFAC
 40
1.0
  9
$DIMGAP
 40
1.524
  9
$DIMJUST
 70
     0
  9
$DIMSD1
 70
     0
  9
$DIMSD2
 70
     0
  9
$DIMTOLJ
 70
     0
  9
$DIMTZIN
 70
     0
  9
$DIMALTZ
 70
     0
  9
$DIMALTTZ
 70
     0
  9
$DIMUPT
 70
     0
  9
$DIMDEC
 70
     2
  9
$DIMTDEC
 70
     2
  9
$DIMALTU
 70
     2
  9
$DIMALTTD
 70
     3
  9
$DIMTXSTY
  7
Standard
  9
$DIMAUNIT
 70
     0
  9
$DIMADEC
 70
     2
  9
$DIMALTRND
 40
0.0
  9
$DIMAZIN
 70
     0
  9
$DIMDSEP
 70
    44
  9
$DIMATFIT
 70
     3
  9
$DIMFRAC
 70
     0
  9
$DIMLDRBLK
  1

  9
$DIMLUNIT
 70
     2
  9
$DIMLWD
 70
    -2
  9
$DIMLWE
 70
    -2
  9
$DIMTMOVE
 70
     0
  9
$LUNITS
 70
     2
  9
$LUPREC
 70
     2
  9
$SKETCHINC
 40
1.0
  9
$FILLETRAD
 40
10.0
  9
$AUNITS
 70
     0
  9
$AUPREC
 70
     2
  9
$MENU
  1
.
  9
$ELEVATION
 40
0.0
  9
$PELEVATION
 40
0.0
  9
$THICKNESS
 40
0.0
  9
$LIMCHECK
 70
     0
  9
$CHAMFERA
 40
0.0
  9
$CHAMFERB
 40
0.0
  9
$CHAMFERC
 40
0.0
  9
$CHAMFERD
 40
0.0
  9
$SKPOLY
 70
     0
  9
$TDCREATE
 40
2458985.699083217
  9
$TDUCREATE
 40
2458985.574083217
  9
$TDUPDATE
 40
2458985.699083553
  9
$TDUUPDATE
 40
2458985.574083553
  9
$TDINDWG
 40
0.0000000116
  9
$TDUSRTIMER
 40
0.0000000116
  9
$USRTIMER
 70
     1
  9
$ANGBASE
 50
0.0
  9
$ANGDIR
 70
     0
  9
$PDMODE
 70
     0
  9
$PDSIZE
 40
-1.0
  9
$PLINEWID
 40
0.0
  9
$SPLFRAME
 70
     0
  9
$SPLINETYPE
 70
     6
  9
$SPLINESEGS
 70
     8
  9
$HANDSEED
  5
ED
  9
$SURFTAB1
 70
     6
  9
$SURFTAB2
 70
     6
  9
$SURFTYPE
 70
     6
  9
$SURFU
 70
     6
  9
$SURFV
 70
     6
  9
$UCSBASE
  2

  9
$UCSNAME
  2

  9
$UCSORG
 10
0.0
 20
0.0
 30
0.0
  9
$UCSXDIR
 10
1.0
 20
0.0
 30
0.0
  9
$UCSYDIR
 10
0.0
 20
1.0
 30
0.0
  9
$UCSORTHOREF
  2

  9
$UCSORTHOVIEW
 70
     0
  9
$UCSORGTOP
 10
0.0
 20
0.0
 30
0.0
  9
$UCSORGBOTTOM
 10
0.0
 20
0.0
 30
0.0
  9
$UCSORGLEFT
 10
0.0
 20
0.0
 30
0.0
  9
$UCSORGRIGHT
 10
0.0
 20
0.0
 30
0.0
  9
$UCSORGFRONT
 10
0.0
 20
0.0
 30
0.0
  9
$UCSORGBACK
 10
0.0
 20
0.0
 30
0.0
  9
$PUCSBASE
  2

  9
$PUCSNAME
  2

  9
$PUCSORG
 10
0.0
 20
0.0
 30
0.0
  9
$PUCSXDIR
 10
1.0
 20
0.0
 30
0.0
  9
$PUCSYDIR
 10
0.0
 20
1.0
 30
0.0
  9
$PUCSORTHOREF
  2

  9
$PUCSORTHOVIEW
 70
     0
  9
$PUCSORGTOP
 10
0.0
 20
0.0
 30
0.0
  9
$PUCSORGBOTTOM
 10
0.0
 20
0.0
 30
0.0
  9
$PUCSORGLEFT
 10
0.0
 20
0.0
 30
0.0
  9
$PUCSORGRIGHT
 10
0.0
 20
0.0
 30
0.0
  9
$PUCSORGFRONT
 10
0.0
 20
0.0
 30
0.0
  9
$PUCSORGBACK
 10
0.0
 20
0.0
 30
0.0
  9
$USERI1
 70
     0
  9
$USERI2
 70
     0
  9
$USERI3
 70
     0
  9
$USERI4
 70
     0
  9
$USERI5
 70
     0
  9
$USERR1
 40
0.0
  9
$USERR2
 40
0.0
  9
$USERR3
 40
0.0
  9
$USERR4
 40
0.0
  9
$USERR5
 40
0.0
  9
$WORLDVIEW
 70
     1
  9
$SHADEDGE
 70
     3
  9
$SHADEDIF
 70
    70
  9
$TILEMODE
 70
     1
  9
$MAXACTVP
 70
    64
  9
$PINSBASE
 10
0.0
 20
0.0
 30
0.0
  9
$PLIMCHECK
 70
     0
  9
$PEXTMIN
 10
1.0000000000E+20
 20
1.0000000000E+20
 30
1.0000000000E+20
  9
$PEXTMAX
 10
-1.0000000000E+20
 20
-1.0000000000E+20
 30
-1.0000000000E+20
  9
$PLIMMIN
 10
0.0
 20
0.0
  9
$PLIMMAX
 10
420.0
 20
297.0
  9
$UNITMODE
 70
     0
  9
$VISRETAIN
 70
     1
  9
$PLINEGEN
 70
     0
  9
$PSLTSCALE
 70
     1
  9
$TREEDEPTH
 70
  3020
  9
$CMLSTYLE
  2
Standard
  9
$CMLJUST
 70
     0
  9
$CMLSCALE
 40
20.0
  9
$PROXYGRAPHICS
 70
     1
  9
$MEASUREMENT
 70
     1
  9
$CELWEIGHT
370
    -1
  9
$ENDCAPS
280
     0
  9
$JOINSTYLE
280
     0
  9
$LWDISPLAY
290
     1
  9
$INSUNITS
 70
     4
  9
$HYPERLINKBASE
  1

  9
$STYLESHEET
  1

  9
$XEDIT
290
     1
  9
$CEPSNTYPE
380
     0
  9
$PSTYLEMODE
290
     1
  9
$FINGERPRINTGUID
  2
{a26f427d-6dbc-43d6-b3b1-9032d1895c88}
  9
$VERSIONGUID
  2
{FAEB1C32-E019-11D5-929B-00C0DF256EC4}
  9
$EXTNAMES
290
     1
  9
$PSVPSCALE
 40
0.0
  9
$OLESTARTUP
290
     0
  0
ENDSEC
  0
SECTION
  2
CLASSES
  0
CLASS
  1
ACDBDICTIONARYWDFLT
  2
AcDbDictionaryWithDefault
  3
ObjectDBX Classes
 90
        0
280
     0
281
     0
  0
CLASS
  1
VISUALSTYLE
  2
AcDbVisualStyle
  3
ObjectDBX Classes
 90
     4095
280
     0
281
     0
  0
CLASS
  1
MATERIAL
  2
AcDbMaterial
  3
ObjectDBX Classes
 90
     1153
280
     0
281
     0
  0
CLASS
  1
SCALE
  2
AcDbScale
  3
ObjectDBX Classes
 90
     1153
280
     0
281
     0
  0
CLASS
  1
TABLESTYLE
  2
AcDbTableStyle
  3
ObjectDBX Classes
 90
     4095
280
     0
281
     0
  0
CLASS
  1
MLEADERSTYLE
  2
AcDbMLeaderStyle
  3
ACDB_MLEADERSTYLE_CLASS
 90
     4095
280
     0
281
     0
  0
CLASS
  1
SUN
  2
AcDbSun
  3
SCENEOE
 90
     1153
280
     0
281
     0
  0
CLASS
  1
ACDBPLACEHOLDER
  2
AcDbPlaceHolder
  3
ObjectDBX Classes
 90
        0
280
     0
281
     0
  0
CLASS
  1
LAYOUT
  2
AcDbLayout
  3
ObjectDBX Classes
 90
        0
280
     0
281
     0
  0
ENDSEC
  0
SECTION
  2
TABLES
  0
TABLE
  2
VPORT
  5
8
330
0
100
AcDbSymbolTable
 70
     1
  0
VPORT
  5
29
330
8
100
AcDbSymbolTableRecord
100
AcDbViewportTableRecord
  2
*Active
 70
     0
 10
0.0
 20
0.0
 11
1.0
 21
1.0
 12
139.7
 22
107.95
 13
0.0
 23
0.0
 14
10.0
 24
10.0
 15
10.0
 25
10.0
 16
0.0
 26
0.0
 36
1.0
 17
0.0
 27
0.0
 37
0.0
 40
215.9
 41
1.2941176471
 42
50.0
 43
0.0
 44
0.0
 50
0.0
 51
0.0
 71
     0
 72
  2000
 73
     1
 74
     3
 75
     0
 76
     0
 77
     0
 78
     0
281
     0
 65
     1
110
0.0
120
0.0
130
0.0
111
1.0
121
0.0
131
0.0
112
0.0
122
1.0
132
0.0
 79
     0
146
0.0
  0
ENDTAB
  0
TABLE
  2
LTYPE
  5
5
330
0
100
AcDbSymbolTable
 70
     6
  0
LTYPE
  5
14
330
5
100
AcDbSymbolTableRecord
100
AcDbLinetypeTableRecord
  2
ByBlock
 70
     0
  3

 72
    65
 73
     0
 40
0.0
  0
LTYPE
  5
15
330
5
100
AcDbSymbolTableRecord
100
AcDbLinetypeTableRecord
  2
ByLayer
 70
     0
  3

 72
    65
 73
     0
 40
0.0
  0
LTYPE
  5
16
330
5
100
AcDbSymbolTableRecord
100
AcDbLinetypeTableRecord
  2
Continuous
 70
     0
  3
Solid line
 72
    65
 73
     0
 40
0.0
  0
LTYPE
  5
6E
330
5
100
AcDbSymbolTableRecord
100
AcDbLinetypeTableRecord
  2
HIDDEN
 70
     0
  3
Hidden __ __ __ __ __ __ __ __ __ __ __ __ __ __
 72
    65
 73
     2
 40
1.905
 49
1.27
 74
     0
 49
-0.635
 74
     0
  0
LTYPE
  5
6F
330
5
100
AcDbSymbolTableRecord
100
AcDbLinetypeTableRecord
  2
PHANTOM
 70
     0
  3
Phantom ______  __  __  ______  __  __  ______
 72
    65
 73
     6
 40
12.7
 49
6.35
 74
     0
 49
-1.27
 74
     0
 49
1.27
 74
     0
 49
-1.27
 74
     0
 49
1.27
 74
     0
 49
-1.27
 74
     0
  0
LTYPE
  5
70
330
5
100
AcDbSymbolTableRecord
100
AcDbLinetypeTableRecord
  2
CENTER
 70
     0
  3
Center ____ _ ____ _ ____ _ ____ _ ____ _ ____
 72
    65
 73
     4
 40
10.16
 49
6.35
 74
     0
 49
-1.27
 74
     0
 49
1.27
 74
     0
 49
-1.27
 74
     0
  0
LTYPE
  5
71
330
5
100
AcDbSymbolTableRecord
100
AcDbLinetypeTableRecord
  2
CENTERX2
 70
     0
  3
Center (2x) ________  __  ________  __  _____
 72
    65
 73
     4
 40
20.32
 49
12.7
 74
     0
 49
-2.54
 74
     0
 49
2.54
 74
     0
 49
-2.54
 74
     0
  0
LTYPE
  5
72
330
5
100
AcDbSymbolTableRecord
100
AcDbLinetypeTableRecord
  2
DOT2
 70
     0
  3
Dot (.5x) ........................................
 72
    65
 73
     2
 40
0.635
 49
0.0
 74
     0
 49
-0.635
 74
     0
  0
ENDTAB
  0
TABLE
  2
LAYER
  5
2
330
0
100
AcDbSymbolTable
 70
    17
  0
LAYER
  5
10
330
2
100
AcDbSymbolTableRecord
100
AcDbLayerTableRecord
  2
0
 70
     0
 62
     7
  6
Continuous
370
    -3
390
F
  0
LAYER
  5
73
330
2
100
AcDbSymbolTableRecord
100
AcDbLayerTableRecord
  2
FORMAT
 70
     0
 62
     7
  6
Continuous
370
    -3
390
F
  0
LAYER
  5
74
330
2
100
AcDbSymbolTableRecord
100
AcDbLayerTableRecord
  2
YARDIMCI_GEOMETRI
 70
     0
 62
    -6
  6
Continuous
290
     0
370
    -3
390
F
  0
LAYER
  5
75
330
2
100
AcDbSymbolTableRecord
100
AcDbLayerTableRecord
  2
SAYFA_CERCEVESI
 70
     0
 62
     7
  6
Continuous
370
    25
390
F
  0
LAYER
  5
76
330
2
100
AcDbSymbolTableRecord
100
AcDbLayerTableRecord
  2
ANTET
 70
     0
 62
     7
  6
Continuous
370
    -3
390
F
  0
LAYER
  5
77
330
2
100
AcDbSymbolTableRecord
100
AcDbLayerTableRecord
  2
OLCU
 70
     0
 62
   150
  6
Continuous
370
    -3
390
F
  0
LAYER
  5
78
330
2
100
AcDbSymbolTableRecord
100
AcDbLayerTableRecord
  2
METIN
 70
     0
 62
    96
  6
Continuous
370
    -3
390
F
  0
LAYER
  5
79
330
2
100
AcDbSymbolTableRecord
100
AcDbLayerTableRecord
  2
BALON
 70
     0
 62
     5
  6
Continuous
370
    -3
390
F
  0
LAYER
  5
7A
330
2
100
AcDbSymbolTableRecord
100
AcDbLayerTableRecord
  2
VURGU
 70
     0
 62
     7
  6
Continuous
370
    -3
390
F
  0
LAYER
  5
7B
330
2
100
AcDbSymbolTableRecord
100
AcDbLayerTableRecord
  2
SILIK
 70
     0
 62
     7
  6
Continuous
370
    -3
390
F
  0
LAYER
  5
7C
330
2
100
AcDbSymbolTableRecord
100
AcDbLayerTableRecord
  2
MODEL
 70
     0
 62
     7
  6
Continuous
370
    -3
390
F
  0
LAYER
  5
7D
330
2
100
AcDbSymbolTableRecord
100
AcDbLayerTableRecord
  2
DETAYLANDıRMA
 70
     0
 62
   190
  6
Continuous
370
    -3
390
F
  0
LAYER
  5
7E
330
2
100
AcDbSymbolTableRecord
100
AcDbLayerTableRecord
  2
TOLERANS
 70
     0
 62
   230
  6
Continuous
370
    -3
390
F
  0
LAYER
  5
7F
330
2
100
AcDbSymbolTableRecord
100
AcDbLayerTableRecord
  2
MERKEZ_CIZGILERI
 70
     0
 62
    30
  6
Continuous
370
    -3
390
F
  0
LAYER
  5
80
330
2
100
AcDbSymbolTableRecord
100
AcDbLayerTableRecord
  2
KESIT-DETAY_CIZGILERI
 70
     0
 62
     7
  6
Continuous
370
    -3
390
F
  0
LAYER
  5
81
330
2
100
AcDbSymbolTableRecord
100
AcDbLayerTableRecord
  2
\U+041E\U+0421\U+0415\U+0412\U+042B\U+0415
 70
     0
 62
     7
  6
Continuous
370
    -3
390
F
  0
LAYER
  5
82
330
2
100
AcDbSymbolTableRecord
100
AcDbLayerTableRecord
  2
\U+0412\U+041E\U+0414\U+042F\U+041D\U+042B\U+0415_\U+0417\U+041D\U+0410\U+041A\U+0418
 70
     0
 62
    11
  6
Continuous
370
    -3
390
F
  0
ENDTAB
  0
TABLE
  2
STYLE
  5
3
330
0
100
AcDbSymbolTable
 70
     1
  0
STYLE
  5
11
330
3
100
AcDbSymbolTableRecord
100
AcDbTextStyleTableRecord
  2
Standard
 70
     0
 40
0.0
 41
1.0
 50
0.0
 71
     0
 42
3.5
  3
txt
  4

  0
ENDTAB
  0
TABLE
  2
VIEW
  5
6
330
0
100
AcDbSymbolTable
 70
     0
  0
ENDTAB
  0
TABLE
  2
UCS
  5
7
330
0
100
AcDbSymbolTable
 70
     0
  0
ENDTAB
  0
TABLE
  2
APPID
  5
9
330
0
100
AcDbSymbolTable
 70
     1
  0
APPID
  5
12
330
9
100
AcDbSymbolTableRecord
100
AcDbRegAppTableRecord
  2
ACAD
 70
     0
  0
ENDTAB
  0
TABLE
  2
DIMSTYLE
  5
A
330
0
100
AcDbSymbolTable
 70
     1
100
AcDbDimStyleTable
  0
DIMSTYLE
105
27
330
A
100
AcDbSymbolTableRecord
100
AcDbDimStyleTableRecord
  2
ISO-25
 70
     0
 41
2.5
 42
0.625
 43
3.75
 44
1.25
 73
     0
 74
     0
 77
     1
 78
     8
140
2.5
141
2.5
143
0.0393700787
147
0.625
171
     3
172
     1
178
     0
271
     2
272
     2
274
     3
278
    44
283
     0
284
     8
340
11
  0
ENDTAB
  0
TABLE
  2
BLOCK_RECORD
  5
1
330
0
100
AcDbSymbolTable
 70
     2
  0
BLOCK_RECORD
  5
1F
330
1
100
AcDbSymbolTableRecord
100
AcDbBlockTableRecord
  2
*Model_Space
340
22
  0
BLOCK_RECORD
  5
1B
330
1
100
AcDbSymbolTableRecord
100
AcDbBlockTableRecord
  2
*Paper_Space
340
1E
  0
BLOCK_RECORD
  5
23
330
1
100
AcDbSymbolTableRecord
100
AcDbBlockTableRecord
  2
*Paper_Space0
340
26
  0
BLOCK_RECORD
  5
88
330
1
100
AcDbSymbolTableRecord
100
AcDbBlockTableRecord
  2
SW_CENTERMARKSYMBOL_0
340
0
102
{BLKREFS
331
93
102
}
  0
ENDTAB
  0
ENDSEC
  0
SECTION
  2
BLOCKS
  0
BLOCK
  5
20
330
1F
100
AcDbEntity
  8
0
100
AcDbBlockBegin
  2
*Model_Space
 70
     0
 10
0.0
 20
0.0
 30
0.0
  3
*Model_Space
  1

  0
ENDBLK
  5
21
330
1F
100
AcDbEntity
  8
0
100
AcDbBlockEnd
  0
BLOCK
  5
1C
330
1B
100
AcDbEntity
 67
     1
  8
0
100
AcDbBlockBegin
  2
*Paper_Space
 70
     0
 10
0.0
 20
0.0
 30
0.0
  3
*Paper_Space
  1

  0
ENDBLK
  5
1D
330
1B
100
AcDbEntity
 67
     1
  8
0
100
AcDbBlockEnd
  0
BLOCK
  5
24
330
23
100
AcDbEntity
  8
0
100
AcDbBlockBegin
  2
*Paper_Space0
 70
     0
 10
0.0
 20
0.0
 30
0.0
  3
*Paper_Space0
  1

  0
ENDBLK
  5
25
330
23
100
AcDbEntity
  8
0
100
AcDbBlockEnd
  0
BLOCK
  5
89
330
88
100
AcDbEntity
  8
0
100
AcDbBlockBegin
  2
SW_CENTERMARKSYMBOL_0
 70
     0
 10
0.0
 20
0.0
 30
0.0
  3
SW_CENTERMARKSYMBOL_0
  1

  0
LINE
  5
8B
330
88
100
AcDbEntity
  8
FORMAT
 62
     0
100
AcDbLine
 10
0.0
 20
0.0
 30
0.0
 11
0.0
 21
2.5
 31
0.0
  0
LINE
  5
8C
330
88
100
AcDbEntity
  8
FORMAT
 62
     0
100
AcDbLine
 10
0.0
 20
0.0
 30
0.0
 11
-2.5
 21
0.0
 31
0.0
  0
LINE
  5
8D
330
88
100
AcDbEntity
  8
FORMAT
 62
     0
100
AcDbLine
 10
0.0
 20
0.0
 30
0.0
 11
0.0
 21
-2.5
 31
0.0
  0
LINE
  5
8E
330
88
100
AcDbEntity
  8
FORMAT
 62
     0
100
AcDbLine
 10
0.0
 20
0.0
 30
0.0
 11
2.5
 21
0.0
 31
0.0
  0
LINE
  5
8F
330
88
100
AcDbEntity
  8
FORMAT
 62
     0
100
AcDbLine
 10
0.0
 20
5.0
 30
0.0
 11
0.0
 21
65.0
 31
0.0
  0
LINE
  5
90
330
88
100
AcDbEntity
  8
FORMAT
 62
     0
100
AcDbLine
 10
-5.0
 20
0.0
 30
0.0
 11
-65.0
 21
0.0
 31
0.0
  0
LINE
  5
91
330
88
100
AcDbEntity
  8
FORMAT
 62
     0
100
AcDbLine
 10
0.0
 20
-5.0
 30
0.0
 11
0.0
 21
-65.0
 31
0.0
  0
LINE
  5
92
330
88
100
AcDbEntity
  8
FORMAT
 62
     0
100
AcDbLine
 10
5.0
 20
0.0
 30
0.0
 11
65.0
 21
0.0
 31
0.0
  0
ENDBLK
  5
8A
330
88
100
AcDbEntity
  8
0
100
AcDbBlockEnd
  0
ENDSEC
  0
SECTION
  2
ENTITIES
  0
CIRCLE
  5
83
330
1F
100
AcDbEntity
  8
0
  6
Continuous
 62
     7
370
    25
100
AcDbCircle
 10
139.395004093
 20
107.5851680021
 30
0.0
 40
62.5
  0
CIRCLE
  5
84
330
1F
100
AcDbEntity
  8
0
  6
Continuous
 62
     7
370
    25
100
AcDbCircle
 10
139.395004093
 20
107.5851680021
 30
0.0
 40
51.10000000000001
  0
CIRCLE
  5
85
330
1F
100
AcDbEntity
  8
0
  6
Continuous
 62
     7
370
    25
100
AcDbCircle
 10
139.395004093
 20
107.5851680021
 30
0.0
 40
50.2175380050512
  0
CIRCLE
  5
86
330
1F
100
AcDbEntity
  8
0
  6
Continuous
 62
     7
370
    25
100
AcDbCircle
 10
139.395004093
 20
107.5851680021
 30
0.0
 40
26.58246199494884
  0
CIRCLE
  5
87
330
1F
100
AcDbEntity
  8
0
  6
Continuous
 62
     7
370
    25
100
AcDbCircle
 10
139.395004093
 20
107.5851680021
 30
0.0
 40
25.70000000000002
  0
INSERT
  5
93
330
1F
100
AcDbEntity
  8
FORMAT
 62
     7
100
AcDbBlockReference
  2
SW_CENTERMARKSYMBOL_0
 10
139.395004093
 20
107.5851680021
 30
0.0
  0
ARC
  5
94
330
1F
100
AcDbEntity
  8
0
  6
Continuous
 62
     7
370
    25
100
AcDbCircle
 10
-97.0900764046
 20
168.0851680021
 30
0.0
 40
2.000000000000001
100
AcDbArc
 50
55.4374753511
 51
90.0
  0
ARC
  5
95
330
1F
100
AcDbEntity
  8
0
  6
Continuous
 62
     7
370
    25
100
AcDbCircle
 10
-97.0900764046
 20
47.0851680021
 30
0.0
 40
2.000000000000007
100
AcDbArc
 50
270.0
 51
304.5625246489
  0
LINE
  5
96
330
1F
100
AcDbEntity
  8
0
  6
Continuous
 62
     7
370
    25
100
AcDbLine
 10
-97.0900760337
 20
170.0851680021
 30
0.0
 11
-183.4678625061
 21
170.0851680021
 31
0.0
  0
LINE
  5
97
330
1F
100
AcDbEntity
  8
0
  6
Continuous
 62
     7
370
    25
100
AcDbLine
 10
-183.4678625061
 20
45.0851680021
 30
0.0
 11
-97.0900760337
 21
45.0851680021
 31
0.0
  0
LINE
  5
98
330
1F
100
AcDbEntity
  8
0
  6
Continuous
 62
     7
370
    25
100
AcDbLine
 10
-95.9554662301
 20
45.4381541591
 30
0.0
 11
-51.9802601381
 21
75.7321850638
 31
0.0
  0
LINE
  5
99
330
1F
100
AcDbEntity
  8
0
  6
Continuous
 62
     7
370
    25
100
AcDbLine
 10
-51.9802601381
 20
139.4381509404
 30
0.0
 11
-95.9554662301
 21
169.7321818452
 31
0.0
  0
ARC
  5
9A
330
1F
100
AcDbEntity
  8
0
  6
Continuous
 62
     7
370
    25
100
AcDbCircle
 10
-50.8456500343
 20
141.0851680021
 30
0.0
 40
2.0
100
AcDbArc
 50
235.4374753511
 51
270.0
  0
ARC
  5
9B
330
1F
100
AcDbEntity
  8
0
  6
Continuous
 62
     7
370
    25
100
AcDbCircle
 10
-50.8456500343
 20
74.0851680021
 30
0.0
 40
2.000000000000021
100
AcDbArc
 50
90.0
 51
124.5625246489
  0
LINE
  5
9C
330
1F
100
AcDbEntity
  8
0
  6
Continuous
 62
     7
370
    25
100
AcDbLine
 10
11.5321377919
 20
139.0851685088
 30
0.0
 11
-50.8456503346
 21
139.0851685088
 31
0.0
  0
LINE
  5
9D
330
1F
100
AcDbEntity
  8
0
  6
Continuous
 62
     7
370
    25
100
AcDbLine
 10
-50.8456503346
 20
76.0851674955
 30
0.0
 11
11.5321377919
 21
76.0851674955
 31
0.0
  0
LINE
  5
9E
330
1F
100
AcDbEntity
  8
0
  6
Continuous
 62
     7
370
    25
100
AcDbLine
 10
-183.4678625061
 20
170.0851680021
 30
0.0
 11
-183.4678625061
 21
45.0851680021
 31
0.0
  0
LINE
  5
9F
330
1F
100
AcDbEntity
  8
0
  6
Continuous
 62
     7
370
    25
100
AcDbLine
 10
11.5321377919
 20
139.0851685088
 30
0.0
 11
11.5321377919
 21
76.0851674955
 31
0.0
  0
LINE
  5
A0
330
1F
100
AcDbEntity
  8
0
  6
Continuous
 62
     1
370
    25
100
AcDbLine
 10
-95.9554662301
 20
169.7321818452
 30
0.0
 11
-95.9554662301
 21
45.4381541591
 31
0.0
  0
LINE
  5
A1
330
1F
100
AcDbEntity
  8
0
  6
Continuous
 62
     1
370
    25
100
AcDbLine
 10
-97.0900760337
 20
170.0851680021
 30
0.0
 11
-97.0900760337
 21
45.0851680021
 31
0.0
  0
LINE
  5
A2
330
1F
100
AcDbEntity
  8
0
  6
Continuous
 62
     1
370
    25
100
AcDbLine
 10
-51.9802601381
 20
139.4381509404
 30
0.0
 11
-51.9802601381
 21
75.7321850638
 31
0.0
  0
LINE
  5
A3
330
1F
100
AcDbEntity
  8
0
  6
Continuous
 62
     1
370
    25
100
AcDbLine
 10
-50.8456503346
 20
139.0851685088
 30
0.0
 11
-50.8456503346
 21
76.0851674955
 31
0.0
  0
ARC
  5
A4
330
1F
100
AcDbEntity
  8
0
  6
Continuous
 62
     7
370
    25
100
AcDbCircle
 10
359.1426794734
 20
47.0851680021
 30
0.0
 40
2.0
100
AcDbArc
 50
235.4374753511
 51
270.0
  0
ARC
  5
A5
330
1F
100
AcDbEntity
  8
0
  6
Continuous
 62
     7
370
    25
100
AcDbCircle
 10
359.1426794734
 20
168.0851680021
 30
0.0
 40
1.999999999999985
100
AcDbArc
 50
90.0
 51
124.5625246489
  0
LINE
  5
A6
330
1F
100
AcDbEntity
  8
0
  6
Continuous
 62
     7
370
    25
100
AcDbLine
 10
359.1426791026
 20
45.0851680021
 30
0.0
 11
445.520465575
 21
45.0851680021
 31
0.0
  0
LINE
  5
A7
330
1F
100
AcDbEntity
  8
0
  6
Continuous
 62
     7
370
    25
100
AcDbLine
 10
445.520465575
 20
170.0851680021
 30
0.0
 11
359.1426791026
 21
170.0851680021
 31
0.0
  0
LINE
  5
A8
330
1F
100
AcDbEntity
  8
0
  6
Continuous
 62
     7
370
    25
100
AcDbLine
 10
358.008069299
 20
169.7321818452
 30
0.0
 11
314.032863207
 21
139.4381509404
 31
0.0
  0
LINE
  5
A9
330
1F
100
AcDbEntity
  8
0
  6
Continuous
 62
     7
370
    25
100
AcDbLine
 10
314.032863207
 20
75.7321850638
 30
0.0
 11
358.008069299
 21
45.4381541591
 31
0.0
  0
ARC
  5
AA
330
1F
100
AcDbEntity
  8
0
  6
Continuous
 62
     7
370
    25
100
AcDbCircle
 10
312.8982531032
 20
74.0851680021
 30
0.0
 40
2.000000000000041
100
AcDbArc
 50
55.4374753511
 51
90.0
  0
ARC
  5
AB
330
1F
100
AcDbEntity
  8
0
  6
Continuous
 62
     7
370
    25
100
AcDbCircle
 10
312.8982531032
 20
141.0851680021
 30
0.0
 40
2.000000000000017
100
AcDbArc
 50
270.0
 51
304.5625246489
  0
LINE
  5
AC
330
1F
100
AcDbEntity
  8
0
  6
Continuous
 62
     7
370
    25
100
AcDbLine
 10
250.520465277
 20
76.0851674955
 30
0.0
 11
312.8982534034
 21
76.0851674955
 31
0.0
  0
LINE
  5
AD
330
1F
100
AcDbEntity
  8
0
  6
Continuous
 62
     7
370
    25
100
AcDbLine
 10
312.8982534034
 20
139.0851685088
 30
0.0
 11
250.520465277
 21
139.0851685088
 31
0.0
  0
LINE
  5
AE
330
1F
100
AcDbEntity
  8
0
  6
Continuous
 62
     7
370
    25
100
AcDbLine
 10
445.520465575
 20
107.5851680021
 30
0.0
 11
445.520465575
 21
170.0851680021
 31
0.0
  0
LINE
  5
AF
330
1F
100
AcDbEntity
  8
0
  6
Continuous
 62
     7
370
    25
100
AcDbLine
 10
445.520465575
 20
45.0851680021
 30
0.0
 11
445.520465575
 21
107.5851680021
 31
0.0
  0
LINE
  5
B0
330
1F
100
AcDbEntity
  8
0
  6
Continuous
 62
     7
370
    25
100
AcDbLine
 10
250.520465277
 20
107.5851680021
 30
0.0
 11
250.520465277
 21
139.0851685088
 31
0.0
  0
LINE
  5
B1
330
1F
100
AcDbEntity
  8
0
  6
Continuous
 62
     7
370
    25
100
AcDbLine
 10
250.520465277
 20
76.0851674955
 30
0.0
 11
250.520465277
 21
107.5851680021
 31
0.0
  0
LINE
  5
B2
330
1F
100
AcDbEntity
  8
0
  6
Continuous
 62
     1
370
    25
100
AcDbLine
 10
358.008069299
 20
107.5851680021
 30
0.0
 11
358.008069299
 21
169.7321818452
 31
0.0
  0
LINE
  5
B3
330
1F
100
AcDbEntity
  8
0
  6
Continuous
 62
     1
370
    25
100
AcDbLine
 10
358.008069299
 20
45.4381541591
 30
0.0
 11
358.008069299
 21
107.5851680021
 31
0.0
  0
LINE
  5
B4
330
1F
100
AcDbEntity
  8
0
  6
Continuous
 62
     1
370
    25
100
AcDbLine
 10
359.1426791026
 20
107.5851680021
 30
0.0
 11
359.1426791026
 21
170.0851680021
 31
0.0
  0
LINE
  5
B5
330
1F
100
AcDbEntity
  8
0
  6
Continuous
 62
     1
370
    25
100
AcDbLine
 10
359.1426791026
 20
45.0851680021
 30
0.0
 11
359.1426791026
 21
107.5851680021
 31
0.0
  0
LINE
  5
B6
330
1F
100
AcDbEntity
  8
0
  6
Continuous
 62
     1
370
    25
100
AcDbLine
 10
314.032863207
 20
107.5851680021
 30
0.0
 11
314.032863207
 21
139.4381509404
 31
0.0
  0
LINE
  5
B7
330
1F
100
AcDbEntity
  8
0
  6
Continuous
 62
     1
370
    25
100
AcDbLine
 10
314.032863207
 20
75.7321850638
 30
0.0
 11
314.032863207
 21
107.5851680021
 31
0.0
  0
LINE
  5
B8
330
1F
100
AcDbEntity
  8
0
  6
Continuous
 62
     1
370
    25
100
AcDbLine
 10
312.8982534034
 20
107.5851680021
 30
0.0
 11
312.8982534034
 21
139.0851685088
 31
0.0
  0
LINE
  5
B9
330
1F
100
AcDbEntity
  8
0
  6
Continuous
 62
     1
370
    25
100
AcDbLine
 10
312.8982534034
 20
76.0851674955
 30
0.0
 11
312.8982534034
 21
107.5851680021
 31
0.0
  0
ARC
  5
BA
330
1F
100
AcDbEntity
  8
0
  6
Continuous
 62
     7
370
    25
100
AcDbCircle
 10
199.895004093
 20
315.875800507
 30
0.0
 40
2.0
100
AcDbArc
 50
325.4374753511
 51
0.0
  0
ARC
  5
BB
330
1F
100
AcDbEntity
  8
0
  6
Continuous
 62
     7
370
    25
100
AcDbCircle
 10
78.895004093
 20
315.875800507
 30
0.0
 40
1.999999999999986
100
AcDbArc
 50
180.0
 51
214.5625246489
  0
LINE
  5
BC
330
1F
100
AcDbEntity
  8
0
  6
Continuous
 62
     7
370
    25
100
AcDbLine
 10
201.895004093
 20
315.8758001361
 30
0.0
 11
201.895004093
 21
402.2535866086
 31
0.0
  0
LINE
  5
BD
330
1F
100
AcDbEntity
  8
0
  6
Continuous
 62
     7
370
    25
100
AcDbLine
 10
76.895004093
 20
402.2535866086
 30
0.0
 11
76.895004093
 21
315.8758001361
 31
0.0
  0
LINE
  5
BE
330
1F
100
AcDbEntity
  8
0
  6
Continuous
 62
     7
370
    25
100
AcDbLine
 10
77.24799025
 20
314.7411903326
 30
0.0
 11
107.5420211548
 21
270.7659842406
 31
0.0
  0
LINE
  5
BF
330
1F
100
AcDbEntity
  8
0
  6
Continuous
 62
     7
370
    25
100
AcDbLine
 10
171.2479870313
 20
270.7659842406
 30
0.0
 11
201.5420179361
 21
314.7411903326
 31
0.0
  0
ARC
  5
C0
330
1F
100
AcDbEntity
  8
0
  6
Continuous
 62
     7
370
    25
100
AcDbCircle
 10
172.895004093
 20
269.6313741368
 30
0.0
 40
2.000000000000008
100
AcDbArc
 50
145.4374753511
 51
180.0
  0
ARC
  5
C1
330
1F
100
AcDbEntity
  8
0
  6
Continuous
 62
     7
370
    25
100
AcDbCircle
 10
105.895004093
 20
269.6313741368
 30
0.0
 40
2.0
100
AcDbArc
 50
0.0
 51
34.5625246489
  0
LINE
  5
C2
330
1F
100
AcDbEntity
  8
0
  6
Continuous
 62
     7
370
    25
100
AcDbLine
 10
170.8950045997
 20
207.2535863106
 30
0.0
 11
170.8950045997
 21
269.631374437
 31
0.0
  0
LINE
  5
C3
330
1F
100
AcDbEntity
  8
0
  6
Continuous
 62
     7
370
    25
100
AcDbLine
 10
107.8950035864
 20
269.631374437
 30
0.0
 11
107.8950035864
 21
207.2535863106
 31
0.0
  0
LINE
  5
C4
330
1F
100
AcDbEntity
  8
0
  6
Continuous
 62
     7
370
    25
100
AcDbLine
 10
201.895004093
 20
402.2535866086
 30
0.0
 11
76.895004093
 21
402.2535866086
 31
0.0
  0
LINE
  5
C5
330
1F
100
AcDbEntity
  8
0
  6
Continuous
 62
     7
370
    25
100
AcDbLine
 10
170.8950045997
 20
207.2535863106
 30
0.0
 11
107.8950035864
 21
207.2535863106
 31
0.0
  0
LINE
  5
C6
330
1F
100
AcDbEntity
  8
0
  6
Continuous
 62
     1
370
    25
100
AcDbLine
 10
201.5420179361
 20
314.7411903326
 30
0.0
 11
77.24799025
 21
314.7411903326
 31
0.0
  0
LINE
  5
C7
330
1F
100
AcDbEntity
  8
0
  6
Continuous
 62
     1
370
    25
100
AcDbLine
 10
201.895004093
 20
315.8758001361
 30
0.0
 11
76.895004093
 21
315.8758001361
 31
0.0
  0
LINE
  5
C8
330
1F
100
AcDbEntity
  8
0
  6
Continuous
 62
     1
370
    25
100
AcDbLine
 10
171.2479870313
 20
270.7659842406
 30
0.0
 11
107.5420211548
 21
270.7659842406
 31
0.0
  0
LINE
  5
C9
330
1F
100
AcDbEntity
  8
0
  6
Continuous
 62
     1
370
    25
100
AcDbLine
 10
170.8950045997
 20
269.631374437
 30
0.0
 11
107.8950035864
 21
269.631374437
 31
0.0
  0
ARC
  5
CA
330
1F
100
AcDbEntity
  8
0
  6
Continuous
 62
     7
370
    25
100
AcDbCircle
 10
78.895004093
 20
-94.2069810104
 30
0.0
 40
1.99999999999999
100
AcDbArc
 50
145.4374753511
 51
180.0
  0
ARC
  5
CB
330
1F
100
AcDbEntity
  8
0
  6
Continuous
 62
     7
370
    25
100
AcDbCircle
 10
199.895004093
 20
-94.2069810104
 30
0.0
 40
2.0
100
AcDbArc
 50
0.0
 51
34.5625246489
  0
LINE
  5
CC
330
1F
100
AcDbEntity
  8
0
  6
Continuous
 62
     7
370
    25
100
AcDbLine
 10
76.895004093
 20
-94.2069806395
 30
0.0
 11
76.895004093
 21
-180.5847671119
 31
0.0
  0
LINE
  5
CD
330
1F
100
AcDbEntity
  8
0
  6
Continuous
 62
     7
370
    25
100
AcDbLine
 10
201.895004093
 20
-180.5847671119
 30
0.0
 11
201.895004093
 21
-94.2069806395
 31
0.0
  0
LINE
  5
CE
330
1F
100
AcDbEntity
  8
0
  6
Continuous
 62
     7
370
    25
100
AcDbLine
 10
201.5420179361
 20
-93.0723708359
 30
0.0
 11
171.2479870313
 21
-49.0971647439
 31
0.0
  0
LINE
  5
CF
330
1F
100
AcDbEntity
  8
0
  6
Continuous
 62
     7
370
    25
100
AcDbLine
 10
107.5420211548
 20
-49.0971647439
 30
0.0
 11
77.24799025
 21
-93.0723708359
 31
0.0
  0
ARC
  5
D0
330
1F
100
AcDbEntity
  8
0
  6
Continuous
 62
     7
370
    25
100
AcDbCircle
 10
105.895004093
 20
-47.9625546401
 30
0.0
 40
2.000000000000009
100
AcDbArc
 50
325.4374753511
 51
0.0
  0
ARC
  5
D1
330
1F
100
AcDbEntity
  8
0
  6
Continuous
 62
     7
370
    25
100
AcDbCircle
 10
172.895004093
 20
-47.9625546401
 30
0.0
 40
2.000000000000021
100
AcDbArc
 50
180.0
 51
214.5625246489
  0
LINE
  5
D2
330
1F
100
AcDbEntity
  8
0
  6
Continuous
 62
     7
370
    25
100
AcDbLine
 10
107.8950035864
 20
14.4152331861
 30
0.0
 11
107.8950035864
 21
-47.9625549404
 31
0.0
  0
LINE
  5
D3
330
1F
100
AcDbEntity
  8
0
  6
Continuous
 62
     7
370
    25
100
AcDbLine
 10
170.8950045997
 20
-47.9625549404
 30
0.0
 11
170.8950045997
 21
14.4152331861
 31
0.0
  0
LINE
  5
D4
330
1F
100
AcDbEntity
  8
0
  6
Continuous
 62
     7
370
    25
100
AcDbLine
 10
76.895004093
 20
-180.5847671119
 30
0.0
 11
201.895004093
 21
-180.5847671119
 31
0.0
  0
LINE
  5
D5
330
1F
100
AcDbEntity
  8
0
  6
Continuous
 62
     7
370
    25
100
AcDbLine
 10
107.8950035864
 20
14.4152331861
 30
0.0
 11
170.8950045997
 21
14.4152331861
 31
0.0
  0
LINE
  5
D6
330
1F
100
AcDbEntity
  8
0
  6
Continuous
 62
     1
370
    25
100
AcDbLine
 10
77.24799025
 20
-93.0723708359
 30
0.0
 11
201.5420179361
 21
-93.0723708359
 31
0.0
  0
LINE
  5
D7
330
1F
100
AcDbEntity
  8
0
  6
Continuous
 62
     1
370
    25
100
AcDbLine
 10
76.895004093
 20
-94.2069806395
 30
0.0
 11
201.895004093
 21
-94.2069806395
 31
0.0
  0
LINE
  5
D8
330
1F
100
AcDbEntity
  8
0
  6
Continuous
 62
     1
370
    25
100
AcDbLine
 10
107.5420211548
 20
-49.0971647439
 30
0.0
 11
171.2479870313
 21
-49.0971647439
 31
0.0
  0
LINE
  5
D9
330
1F
100
AcDbEntity
  8
0
  6
Continuous
 62
     1
370
    25
100
AcDbLine
 10
107.8950035864
 20
-47.9625549404
 30
0.0
 11
170.8950045997
 21
-47.9625549404
 31
0.0
  0
LINE
  5
DA
330
1F
100
AcDbEntity
  8
0
  6
Continuous
 62
     7
370
    25
100
AcDbLine
 10
379.5034301332
 20
-30.0671989295
 30
0.0
 11
318.4251115747
 21
5.1925638492
 31
0.0
  0
LINE
  5
DB
330
1F
100
AcDbEntity
  8
0
  6
Continuous
 62
     7
370
    25
100
AcDbLine
 10
255.9301913396
 20
-103.0635422749
 30
0.0
 11
317.0085098981
 21
-138.3233050536
 31
0.0
  0
SPLINE
  5
DC
330
1F
100
AcDbEntity
  8
0
  6
Continuous
 62
     7
370
    25
100
AcDbSpline
210
0.0
220
0.0
230
1.0
 70
     8
 71
     3
 72
    16
 73
    12
 74
     0
 42
0.000000001
 43
0.00000001
 40
0.0
 40
0.0
 40
0.0
 40
0.0
 40
0.0060640916072859
 40
0.1455921667426766
 40
0.2847032282769393
 40
0.4233134284249604
 40
0.5613586576526931
 40
0.6988081861463981
 40
0.835675511692211
 40
0.9720252808854344
 40
1.0
 40
1.0
 40
1.0
 40
1.0
 10
390.1190082341287
 20
-42.86638214198244
 30
0.0
 10
390.1078864700527
 20
-42.83619773941388
 30
0.0
 10
389.8408651526494
 20
-42.11150344777298
 30
0.0
 10
389.2127109522241
 20
-40.78945193953069
 30
0.0
 10
388.228614488568
 20
-38.91737208923642
 30
0.0
 10
387.124748507331
 20
-37.1774598958901
 30
0.0
 10
385.9208942889416
 20
-35.56109173508901
 30
0.0
 10
384.6194565830017
 20
-34.07254456402281
 30
0.0
 10
383.2164220274694
 20
-32.72974169873009
 30
0.0
 10
382.1384286620685
 20
-31.80932513791507
 30
0.0
 10
381.5030268351005
 20
-31.38043265215068
 30
0.0
 10
381.3948555709306
 20
-31.30741768680279
 30
0.0
  0
SPLINE
  5
DD
330
1F
100
AcDbEntity
  8
0
  6
Continuous
 62
     7
370
    25
100
AcDbSpline
210
0.0
220
0.0
230
1.0
 70
     8
 71
     3
 72
    15
 73
    11
 74
     0
 42
0.000000001
 43
0.00000001
 40
0.0
 40
0.0
 40
0.0
 40
0.0
 40
0.1136057711470921
 40
0.2506129581353586
 40
0.3879314087941045
 40
0.5256954180550079
 40
0.663992900968234
 40
0.8028621959815248
 40
0.9422952999306325
 40
1.0
 40
1.0
 40
1.0
 40
1.0
 10
319.089409127477
 20
-139.3703666362211
 30
0.0
 10
319.5728361934785
 20
-139.5788316976819
 30
0.0
 10
320.639270458481
 20
-140.0387031038
 30
0.0
 10
322.3740688779345
 20
-140.5752677944837
 30
0.0
 10
324.2713666496004
 20
-141.0130098274195
 30
0.0
 10
326.2331320219939
 20
-141.2983167731573
 30
0.0
 10
328.2517227543042
 20
-141.4383607145267
 30
0.0
 10
330.3255642573897
 20
-141.4193949159506
 30
0.0
 10
332.02422448711
 20
-141.3106920495322
 30
0.0
 10
333.0413552325941
 20
-141.1552004661964
 30
0.0
 10
333.3390821190821
 20
-141.1096861356276
 30
0.0
  0
LINE
  5
DE
330
1F
100
AcDbEntity
  8
0
  6
Continuous
 62
     7
370
    25
100
AcDbLine
 10
337.0624585229
 20
-140.4017379366
 30
0.0
 11
374.0050688389
 21
-131.1800874986
 31
0.0
  0
LINE
  5
DF
330
1F
100
AcDbEntity
  8
0
  6
Continuous
 62
     7
370
    25
100
AcDbLine
 10
401.8204682768
 20
-82.997182003
 30
0.0
 11
391.3319128748
 21
-46.394101857
 31
0.0
  0
LINE
  5
E0
330
1F
100
AcDbEntity
  8
0
  6
Continuous
 62
     7
370
    25
100
AcDbLine
 10
440.8121944885
 20
-101.2547411168
 30
0.0
 11
400.3606054944
 21
-77.9025358561
 31
0.0
  0
LINE
  5
E1
330
1F
100
AcDbEntity
  8
0
  6
Continuous
 62
     7
370
    25
100
AcDbLine
 10
368.8631645158
 20
-132.463614097
 30
0.0
 11
409.3147535099
 21
-155.8158193576
 31
0.0
  0
LWPOLYLINE
  5
E2
330
1F
100
AcDbEntity
  8
0
  6
Continuous
 62
     7
370
    25
100
AcDbPolyline
 90
      118
 70
   128
 43
0.0
 10
242.983477633
 20
-74.4482427073
 10
243.047190497
 20
-71.6721395474
 10
243.2381394284
 20
-68.8304827369
 10
243.5557817864
 20
-65.9314610793
 10
243.9991929745
 20
-62.9834382491
 10
244.5671006847
 20
-59.9949103984
 10
245.2578664584
 20
-56.9744941784
 10
246.0694988569
 20
-53.9308997444
 10
246.9996534617
 20
-50.8729041389
 10
248.0456539481
 20
-47.8093208758
 10
249.2044815479
 20
-44.7489862506
 10
250.4727961234
 20
-41.7007197986
 10
251.8469388014
 20
-38.6733136482
 10
253.3229504122
 20
-35.6754960212
 10
254.8965741241
 20
-32.7159114601
 10
256.5632712485
 20
-29.8030934538
 10
258.3182370445
 20
-26.9454370616
 10
260.1564138904
 20
-24.1511852268
 10
262.0724991858
 20
-21.4283907538
 10
264.0609690593
 20
-18.7849087059
 10
266.1160902224
 20
-16.228356102
 10
268.2319384088
 20
-13.7661073552
 10
270.402410228
 20
-11.4052630954
 10
272.6212508242
 20
-9.1526250762
 10
274.8820604619
 20
-7.0146923735
 10
277.1783215261
 20
-4.9976305889
 10
279.5034136688
 20
-3.107250939
 10
281.8506325778
 20
-1.3490055037
 10
284.213210391
 20
0.2720367261
 10
286.5843355357
 20
1.7511982596
 10
288.9571714144
 20
3.0842191024
 10
291.3248763259
 20
4.2672500054
 10
293.6806237155
 20
5.2968884904
 10
296.0176216844
 20
6.1701566514
 10
298.3291320052
 20
6.8845455934
 10
300.6084888904
 20
7.4379867222
 10
302.8491220415
 20
7.8288893857
 10
305.0445698196
 20
8.0561271843
 10
307.1885022951
 20
8.119042151
 10
309.2747383692
 20
8.0174546361
 10
311.2972628963
 20
7.7516579824
 10
313.2502451233
 20
7.322417002
 10
315.1280531777
 20
6.730970257
 10
316.9252711894
 20
5.9790216925
 10
318.6367203643
 20
5.0687406346
 10
320.2574668871
 20
4.0027511433
 10
321.7828324575
 20
2.7841259275
 10
323.2084232666
 20
1.4163817801
 10
324.5301299967
 20
-0.0965386739
 10
325.7441383579
 20
-1.7502776241
 10
326.8469475277
 20
-3.5400635978
 10
327.8353833215
 20
-5.4607342751
 10
328.7065902903
 20
-7.5067547392
 10
329.4580580626
 20
-9.6722266043
 10
330.087623978
 20
-11.9509017043
 10
330.5934651855
 20
-14.3362147921
 10
330.9741302529
 20
-16.8212858238
 10
331.2285180938
 20
-19.398950375
 10
331.3558937725
 20
-22.0617777038
 10
331.3558937725
 20
-24.8020878614
 10
331.2285180938
 20
-27.6119800185
 10
330.9741302529
 20
-30.483354519
 10
330.5934651855
 20
-33.4079320823
 10
330.087623978
 20
-36.3772769968
 10
329.4580580626
 20
-39.3828334307
 10
328.7065902903
 20
-42.4159315177
 10
327.8353833215
 20
-45.4678261374
 10
326.8469475277
 20
-48.5297204906
 10
325.7441383579
 20
-51.5927828293
 10
324.5301299967
 20
-54.6481859981
 10
323.2084232666
 20
-57.6871165606
 10
321.7828324575
 20
-60.7008128211
 10
320.2574668871
 20
-63.6805876374
 10
318.6367203643
 20
-66.6178512327
 10
316.9252711894
 20
-69.5041294477
 10
315.1280531777
 20
-72.3311017603
 10
313.2502451233
 20
-75.0906195362
 10
311.2972628963
 20
-77.7747257998
 10
309.2747383692
 20
-80.3756795673
 10
307.1885022951
 20
-82.8859839823
 10
305.0445698196
 20
-85.2984007629
 10
302.8491220415
 20
-87.6059730141
 10
300.6084888904
 20
-89.8020503213
 10
298.3291320052
 20
-91.8802986351
 10
296.0176216844
 20
-93.8347227023
 10
293.6806237155
 20
-95.6596949624
 10
291.3248763259
 20
-97.3499445191
 10
288.9571714144
 20
-98.9006075185
 10
286.5843355357
 20
-100.3072046669
 10
284.213210391
 20
-101.5656859531
 10
281.8506325778
 20
-102.6724180041
 10
279.5034136688
 20
-103.6242138362
 10
277.1783215261
 20
-104.4183284333
 10
274.8820604619
 20
-105.0524732409
 10
272.6212508242
 20
-105.5248157846
 10
270.402410228
 20
-105.8339965879
 10
268.2319384088
 20
-105.9791257494
 10
266.1160902224
 20
-105.9597833199
 10
264.0609690593
 20
-105.7760231046
 10
262.0724991858
 20
-105.4283795044
 10
260.1564138904
 20
-104.917850024
 10
258.3182370445
 20
-104.2459120007
 10
256.5632712485
 20
-103.4144959869
 10
254.8965741241
 20
-102.4260055199
 10
253.3229504122
 20
-101.2832882236
 10
251.8469388014
 20
-99.9896373282
 10
250.4727961234
 20
-98.5487825431
 10
249.2044815479
 20
-96.9648809301
 10
248.0456539481
 20
-95.2425001725
 10
246.9996534617
 20
-93.3866033646
 10
246.0694988569
 20
-91.4025414066
 10
245.2578664584
 20
-89.2960377933
 10
244.5671006847
 20
-87.0731627595
 10
243.9991929745
 20
-84.7403271942
 10
243.5557817864
 20
-82.3042560246
 10
243.2381394284
 20
-79.7719764273
 10
243.047190497
 20
-77.1507845602
 10
242.983477633
 20
-74.4482427073
  0
LWPOLYLINE
  5
E3
330
1F
100
AcDbEntity
  8
0
  6
Continuous
 62
     7
370
    25
100
AcDbPolyline
 90
      106
 70
   128
 43
0.0
 10
251.0444944159
 20
-69.7947167716
 10
251.1091687549
 20
-67.2620386338
 10
251.3029573302
 20
-64.6637572114
 10
251.625169987
 20
-62.0091711896
 10
252.0746503213
 20
-59.307786056
 10
252.6497888503
 20
-56.5692709453
 10
253.3485309151
 20
-53.8034280313
 10
254.1683714123
 20
-51.0201590662
 10
255.1063758677
 20
-48.2294273595
 10
256.1591857042
 20
-45.4412250784
 10
257.3230366815
 20
-42.6655291429
 10
258.5937588958
 20
-39.9122784117
 10
259.9668031215
 20
-37.191328057
 10
261.4372539825
 20
-34.512422189
 10
262.9998510252
 20
-31.8851436675
 10
264.6489966214
 20
-29.318901935
 10
266.3787902121
 20
-26.8228828297
 10
268.1830375279
 20
-24.4060189279
 10
270.0552808811
 20
-22.0769659727
 10
271.988817606
 20
-19.8440618108
 10
273.9767263995
 20
-17.7152959763
 10
276.011892347
 20
-15.6982861189
 10
278.0870273363
 20
-13.8002631766
 10
280.194704961
 20
-12.0280116826
 10
282.3273799474
 20
-10.3878798436
 10
284.4774172951
 20
-8.885738382
 10
286.6371208415
 20
-7.5269640465
 10
288.7987593562
 20
-6.3164215057
 10
290.954594859
 20
-5.2584470008
 10
293.0969096199
 20
-4.3568205915
 10
295.218035382
 20
-3.6147766626
 10
297.3103781393
 20
-3.0349713686
 10
299.3664489237
 20
-2.6194739868
 10
301.378885866
 20
-2.3697785163
 10
303.3404871236
 20
-2.2867755438
 10
305.2442299777
 20
-2.3707625117
 10
307.0832984929
 20
-2.6214368769
 10
308.8511098581
 20
-3.0379082799
 10
310.5413354606
 20
-3.6186772546
 10
312.1479259107
 20
-4.3616694511
 10
313.6651281634
 20
-5.2642257512
 10
315.0875131778
 20
-6.3231136783
 10
316.4099890878
 20
-7.5345410866
 10
317.6278196414
 20
-8.8941744141
 10
318.736647908
 20
-10.3971447686
 10
319.7325015471
 20
-12.0380737837
 10
320.611816516
 20
-13.8110842679
 10
321.3714476059
 20
-15.7098321445
 10
322.0086710769
 20
-17.7275193802
 10
322.5212109991
 20
-19.8569221244
 10
322.9072313505
 20
-22.0904180854
 10
323.1653465533
 20
-24.4200139075
 10
323.2946346453
 20
-26.8373687474
 10
323.2946346453
 20
-29.333828494
 10
323.1653465533
 20
-31.9004561876
 10
322.9072313505
 20
-34.5280654795
 10
322.5212109991
 20
-37.2072510513
 10
322.0086710769
 20
-39.9284197936
 10
321.3714476059
 20
-42.6818295886
 10
320.611816516
 20
-45.4576288531
 10
319.7325015471
 20
-48.2458747904
 10
318.736647908
 20
-51.0365919434
 10
317.6278196414
 20
-53.8197881641
 10
316.4099890878
 20
-56.5854987195
 10
315.0875131778
 20
-59.3238243126
 10
313.6651281634
 20
-62.0249630211
 10
312.1479259107
 20
-64.6792437557
 10
310.5413354606
 20
-67.2771658025
 10
308.8511098581
 20
-69.8094277192
 10
307.0832984929
 20
-72.266970679
 10
305.2442299777
 20
-74.6409883551
 10
303.3404871236
 20
-76.9229900365
 10
301.378885866
 20
-79.104803668
 10
299.3664489237
 20
-81.1786184338
 10
297.3103781393
 20
-83.13700985
 10
295.218035382
 20
-84.9729720825
 10
293.0969096199
 20
-86.67992783
 10
290.954594859
 20
-88.2517653945
 10
288.7987593562
 20
-89.6828655798
 10
286.6371208415
 20
-90.968097744
 10
284.4774172951
 20
-92.1028640465
 10
282.3273799474
 20
-93.0831028677
 10
280.194704961
 20
-93.9053051558
 10
278.0870273363
 20
-94.5665264494
 10
276.011892347
 20
-95.0644033675
 10
273.9767263995
 20
-95.3971460972
 10
271.988817606
 20
-95.5635709013
 10
270.0552808811
 20
-95.5630807235
 10
268.1830375279
 20
-95.3956739321
 10
266.3787902121
 20
-95.0619496402
 10
264.6489966214
 20
-94.5631077036
 10
262.9998510252
 20
-93.9009289474
 10
261.4372539825
 20
-93.0777865693
 10
259.9668031215
 20
-92.0966271278
 10
258.5937588958
 20
-90.9609598924
 10
257.3230366815
 20
-89.6748538007
 10
256.1591857042
 20
-88.242911601
 10
255.1063758677
 20
-86.6702576836
 10
254.1683714123
 20
-84.9625228688
 10
253.3485309151
 20
-83.1258215936
 10
252.6497888503
 20
-81.1667290953
 10
252.0746503213
 20
-79.0922547956
 10
251.625169987
 20
-76.9098286097
 10
251.3029573302
 20
-74.6272614029
 10
251.1091687549
 20
-72.2527235069
 10
251.0444944159
 20
-69.7947167716
  0
LWPOLYLINE
  5
E4
330
1F
100
AcDbEntity
  8
0
  6
Continuous
 62
     7
370
    25
100
AcDbPolyline
 90
        3
 70
   128
 43
0.0
 10
379.5034301332
 20
-30.0671989295
 10
379.7150389229
 20
-30.1910221441
 10
381.2883913145
 20
-31.2226951026
  0
LWPOLYLINE
  5
E5
330
1F
100
AcDbEntity
  8
0
  6
Continuous
 62
     7
370
    25
100
AcDbPolyline
 90
        3
 70
   128
 43
0.0
 10
318.9599695703
 20
-139.3172108808
 10
317.6415898071
 20
-138.6742587656
 10
317.0085098981
 20
-138.3233050536
  0
ARC
  5
E6
330
1F
100
AcDbEntity
  8
0
  6
Continuous
 62
     7
370
    25
100
AcDbCircle
 10
353.8192267581
 20
-57.2642303218
 30
0.0
 40
39.0489574432066
100
AcDbArc
 50
7.4631931215
 51
21.4662142531
  0
ARC
  5
E7
330
1F
100
AcDbEntity
  8
0
  6
Continuous
 62
     7
370
    25
100
AcDbCircle
 10
327.8309345376
 20
-102.8779164796
 30
0.0
 40
38.63856312561276
100
AcDbArc
 50
278.3634490551
 51
292.7018952759
  0
LWPOLYLINE
  5
E8
330
1F
100
AcDbEntity
  8
0
  6
Continuous
 62
     7
370
    25
100
AcDbPolyline
 90
       43
 70
   128
 43
0.0
 10
440.8121944885
 20
-101.2547411168
 10
441.8214271179
 20
-101.9173176267
 10
442.8831312566
 20
-102.8164615749
 10
443.8427662649
 20
-103.8629204216
 10
444.6948346133
 20
-105.0507019638
 10
445.4344564869
 20
-106.3730003612
 10
446.0573961275
 20
-107.8222417664
 10
446.5600829068
 20
-109.3901261523
 10
446.9396403023
 20
-111.067671802
 10
447.1938938001
 20
-112.845270063
 10
447.3213827485
 20
-114.7127410517
 10
447.3213827485
 20
-116.6593849873
 10
447.1938938001
 20
-118.6740515827
 10
446.9396403023
 20
-120.7452046837
 10
446.5600829068
 20
-122.8609779745
 10
446.0573961275
 20
-125.0092521618
 10
445.4344564869
 20
-127.1777243667
 10
444.6948346133
 20
-129.3539720026
 10
443.8427662649
 20
-131.5255307195
 10
442.8831312566
 20
-133.679960563
 10
441.8214271179
 20
-135.8049220175
 10
440.6637348488
 20
-137.8882444451
 10
439.4166859926
 20
-139.9179945239
 10
438.0874231228
 20
-141.882544686
 10
436.6835590141
 20
-143.7706438368
 10
435.2131377876
 20
-145.5714747664
 10
433.6845795934
 20
-147.2747241064
 10
432.1066404393
 20
-148.8706359398
 10
430.4883588486
 20
-150.3500684494
 10
428.8390038354
 20
-151.7045482868
 10
427.168022879
 20
-152.9263158147
 10
425.48498743
 20
-154.008376338
 10
423.7995375099
 20
-154.9445260019
 10
422.1213272989
 20
-155.7294075383
 10
420.4599696534
 20
-156.358522523
 10
418.8249798007
 20
-156.8282699639
 10
417.2257242194
 20
-157.1359575605
 10
415.6713622758
 20
-157.2798217083
 10
414.1707974915
 20
-157.2590404218
 10
412.732624531
 20
-157.0737319991
 10
411.3650831032
 20
-156.7249572985
 10
410.0760033023
 20
-156.2147163118
 10
409.3147535099
 20
-155.8158193576
  0
LWPOLYLINE
  5
E9
330
1F
100
AcDbEntity
  8
0
  6
Continuous
 62
     1
370
    25
100
AcDbPolyline
 90
       59
 70
   128
 43
0.0
 10
381.2883913145
 20
-31.2226951026
 10
381.3357854457
 20
-31.2570116354
 10
382.8611510161
 20
-32.4756368511
 10
384.2867418252
 20
-33.8433809986
 10
385.6084485552
 20
-35.3563014526
 10
386.8224569164
 20
-37.0100404028
 10
387.9252660862
 20
-38.7998263765
 10
388.91370188
 20
-40.7204970538
 10
389.7849088489
 20
-42.7665175179
 10
390.5363766211
 20
-44.931989383
 10
391.1659425366
 20
-47.210664483
 10
391.6717837441
 20
-49.5959775708
 10
392.0524488115
 20
-52.0810486025
 10
392.3068366524
 20
-54.6587131537
 10
392.4342123311
 20
-57.3215404825
 10
392.4342123311
 20
-60.0618506401
 10
392.3068366524
 20
-62.8717427972
 10
392.0524488115
 20
-65.7431172977
 10
391.6717837441
 20
-68.667694861
 10
391.1659425366
 20
-71.6370397755
 10
390.5363766211
 20
-74.6425962094
 10
389.7849088489
 20
-77.6756942964
 10
388.91370188
 20
-80.7275889161
 10
387.9252660862
 20
-83.7894832693
 10
386.8224569164
 20
-86.852545608
 10
385.6084485552
 20
-89.9079487768
 10
384.2867418252
 20
-92.9468793393
 10
382.8611510161
 20
-95.9605755998
 10
381.3357854457
 20
-98.9403504161
 10
379.7150389229
 20
-101.8776140114
 10
378.0035897479
 20
-104.7638922264
 10
376.2063717363
 20
-107.590864539
 10
374.3285636819
 20
-110.3503823149
 10
372.3755814548
 20
-113.0344885785
 10
370.3530569277
 20
-115.635442346
 10
368.2668208537
 20
-118.145746761
 10
366.1228883782
 20
-120.5581635416
 10
363.9274406
 20
-122.8657357927
 10
361.686807449
 20
-125.0618131
 10
359.4074505637
 20
-127.1400614138
 10
357.0959402429
 20
-129.094485481
 10
354.758942274
 20
-130.9194577411
 10
352.4031948844
 20
-132.6097072978
 10
350.0354899729
 20
-134.1603702972
 10
347.6626540942
 20
-135.5669674456
 10
345.2915289495
 20
-136.8254487318
 10
342.9289511363
 20
-137.9321807828
 10
340.5817322274
 20
-138.8839766149
 10
338.2566400846
 20
-139.678091212
 10
335.9603790204
 20
-140.3122360196
 10
333.6995693828
 20
-140.7845785633
 10
331.4807287866
 20
-141.0937593666
 10
329.3102569674
 20
-141.2388885281
 10
327.194408781
 20
-141.2195460986
 10
325.1392876178
 20
-141.0357858833
 10
323.1508177443
 20
-140.6881422831
 10
321.234732449
 20
-140.1776128027
 10
319.3965556031
 20
-139.5056747794
 10
318.9599695703
 20
-139.3172108808
  0
LWPOLYLINE
  5
EA
330
1F
100
AcDbEntity
  8
0
  6
Continuous
 62
     1
370
    25
100
AcDbPolyline
 90
       36
 70
   128
 43
0.0
 10
392.5373812308
 20
-52.1921901378
 10
392.7452310484
 20
-53.9518911132
 10
392.938387421
 20
-56.5796360962
 10
393.0028352207
 20
-59.2897412017
 10
392.938387421
 20
-62.0742561529
 10
392.7452310484
 20
-64.9250147367
 10
392.4239324513
 20
-67.833654766
 10
391.9754372996
 20
-70.7916437458
 10
391.4010547797
 20
-73.7903087198
 10
390.702476034
 20
-76.8208505305
 10
389.8817478188
 20
-79.8743803192
 10
388.9412777728
 20
-82.9419415799
 10
387.8838212462
 20
-86.0145398161
 10
386.7124865691
 20
-89.0831592713
 10
385.4307034413
 20
-92.1387994287
 10
384.042233469
 20
-95.1724993465
 10
382.5511490915
 20
-98.1753589491
 10
380.9618230443
 20
-101.1385724866
 10
379.2789204566
 20
-104.053445264
 10
377.5073751441
 20
-106.9114316623
 10
375.6523843398
 20
-109.7041442634
 10
373.7193876215
 20
-112.4233933925
 10
371.7140563744
 20
-115.061202326
 10
369.6422700839
 20
-117.6098331452
 10
367.510108433
 20
-120.0618156331
 10
365.3238249602
 20
-122.4099503138
 10
363.0898312549
 20
-124.647354079
 10
360.8146798349
 20
-126.7674639882
 10
358.5050450488
 20
-128.7640635033
 10
356.1677013441
 20
-130.6312889504
 10
353.8095048274
 20
-132.363670583
 10
351.437371698
 20
-133.9561237398
 10
349.0582603018
 20
-135.4039774549
 10
346.6791489055
 20
-136.7029872893
 10
344.3070157761
 20
-137.8493407466
 10
342.7429686184
 20
-138.522969432
  0
LWPOLYLINE
  5
EB
330
1F
100
AcDbEntity
  8
0
  6
Continuous
 62
     1
370
    25
100
AcDbPolyline
 90
       30
 70
   128
 43
0.0
 10
401.8204682768
 20
-82.997182003
 10
401.8909246366
 20
-83.2495695175
 10
402.2747349126
 20
-84.9459134485
 10
402.5318359568
 20
-86.743432112
 10
402.6607552639
 20
-88.6318287022
 10
402.6607552639
 20
-90.6002865158
 10
402.5318359568
 20
-92.6375301697
 10
402.2747349126
 20
-94.7318913804
 10
401.8909246366
 20
-96.8713732236
 10
401.3826033505
 20
-99.0437216164
 10
400.7526844552
 20
-101.2364929977
 10
400.0047741404
 20
-103.4371271403
 10
399.1431568967
 20
-105.6330205342
 10
398.1727691736
 20
-107.8115925446
 10
397.0991664528
 20
-109.9603675385
 10
395.928502174
 20
-112.0670341992
 10
394.6674790033
 20
-114.1195284118
 10
393.3233198568
 20
-116.1060940978
 10
391.9037257539
 20
-118.0153501317
 10
390.4168264268
 20
-119.8363614397
 10
388.8711394899
 20
-121.5586975515
 10
387.2755177572
 20
-123.1724934326
 10
385.6391021557
 20
-124.6685040427
 10
383.9712647615
 20
-126.0381630765
 10
382.2815589152
 20
-127.2736208866
 10
380.5796635747
 20
-128.3678039853
 10
378.8753267628
 20
-129.3144461698
 10
377.1783106609
 20
-130.1081217406
 10
375.4983359621
 20
-130.7442882717
 10
374.0050688389
 20
-131.1800874986
  0
LWPOLYLINE
  5
EC
330
1F
100
AcDbEntity
  8
0
  6
Continuous
 62
     1
370
    25
100
AcDbPolyline
 90
       35
 70
   128
 43
0.0
 10
401.0908786702
 20
-80.4510510925
 10
401.3266995072
 20
-80.9101342492
 10
401.9496391478
 20
-82.3593756544
 10
402.4523259271
 20
-83.9272600403
 10
402.8318833227
 20
-85.60480569
 10
403.0861368205
 20
-87.382403951
 10
403.2136257689
 20
-89.2498749397
 10
403.2136257689
 20
-91.1965188753
 10
403.0861368205
 20
-93.2111854707
 10
402.8318833227
 20
-95.2823385717
 10
402.4523259271
 20
-97.3981118625
 10
401.9496391478
 20
-99.5463860498
 10
401.3266995072
 20
-101.7148582547
 10
400.5870776336
 20
-103.8911058906
 10
399.7350092852
 20
-106.0626646075
 10
398.7753742769
 20
-108.217094451
 10
397.7136701383
 20
-110.3420559055
 10
396.5559778692
 20
-112.4253783331
 10
395.3089290129
 20
-114.4551284119
 10
393.9796661432
 20
-116.419678574
 10
392.5758020345
 20
-118.3077777248
 10
391.105380808
 20
-120.1086086544
 10
389.5768226138
 20
-121.8118579944
 10
387.9988834597
 20
-123.4077698278
 10
386.380601869
 20
-124.8872023374
 10
384.7312468557
 20
-126.2416821748
 10
383.0602658993
 20
-127.4634497027
 10
381.3772304504
 20
-128.545510226
 10
379.6917805303
 20
-129.4816598899
 10
378.0135703192
 20
-130.2665414263
 10
376.3522126737
 20
-130.895656411
 10
374.7172228211
 20
-131.3654038519
 10
373.1179672398
 20
-131.6730914485
 10
371.5636052961
 20
-131.8169555962
 10
371.4353201674
 20
-131.8215508233
  0
ENDSEC
  0
SECTION
  2
OBJECTS
  0
DICTIONARY
  5
C
330
0
100
AcDbDictionary
281
     1
  3
ACAD_GROUP
350
D
  3
ACAD_LAYOUT
350
1A
  3
ACAD_MLINESTYLE
350
17
  3
ACAD_PLOTSETTINGS
350
19
  3
ACAD_PLOTSTYLENAME
350
E
  3
ACAD_SCALELIST
350
47
  0
DICTIONARY
  5
D
102
{ACAD_REACTORS
330
C
102
}
330
C
100
AcDbDictionary
281
     1
  0
DICTIONARY
  5
1A
102
{ACAD_REACTORS
330
C
102
}
330
C
100
AcDbDictionary
281
     1
  3
Layout1
350
1E
  3
Layout2
350
26
  3
Model
350
22
  0
DICTIONARY
  5
17
102
{ACAD_REACTORS
330
C
102
}
330
C
100
AcDbDictionary
281
     1
  3
Standard
350
18
  0
DICTIONARY
  5
19
102
{ACAD_REACTORS
330
C
102
}
330
C
100
AcDbDictionary
281
     1
  0
ACDBDICTIONARYWDFLT
  5
E
102
{ACAD_REACTORS
330
C
102
}
330
C
100
AcDbDictionary
281
     1
  3
Normal
350
F
100
AcDbDictionaryWithDefault
340
F
  0
DICTIONARY
  5
47
102
{ACAD_REACTORS
330
C
102
}
330
C
100
AcDbDictionary
281
     1
  3
A0
350
48
  3
A1
350
49
  3
A2
350
4A
  3
A3
350
4B
  3
A4
350
4C
  3
A5
350
4D
  3
A6
350
4E
  3
A7
350
4F
  3
A8
350
50
  3
A9
350
51
  3
B0
350
52
  3
B1
350
53
  3
B2
350
54
  3
B3
350
55
  3
B4
350
56
  3
B5
350
57
  3
B6
350
58
  3
B7
350
59
  3
B8
350
5A
  3
B9
350
5B
  3
C0
350
5C
  3
C1
350
5D
  3
C2
350
5E
  3
C3
350
5F
  3
C4
350
60
  3
C5
350
61
  3
C6
350
62
  3
C7
350
63
  3
C8
350
64
  3
C9
350
65
  3
D0
350
66
  3
D1
350
67
  3
D2
350
68
  0
LAYOUT
  5
1E
102
{ACAD_REACTORS
330
1A
102
}
330
1A
100
AcDbPlotSettings
  1

  2
none_device
  4

  6

 40
0.0
 41
0.0
 42
0.0
 43
0.0
 44
0.0
 45
0.0
 46
0.0
 47
0.0
 48
0.0
 49
0.0
140
0.0
141
0.0
142
1.0
143
1.0
 70
   688
 72
     1
 73
     0
 74
     5
  7

 75
    16
147
1.0
148
0.0
149
0.0
100
AcDbLayout
  1
Layout1
 70
     1
 71
     1
 10
0.0
 20
0.0
 11
420.0
 21
297.0
 12
0.0
 22
0.0
 32
0.0
 14
1.0000000000E+20
 24
1.0000000000E+20
 34
1.0000000000E+20
 15
-1.0000000000E+20
 25
-1.0000000000E+20
 35
-1.0000000000E+20
146
0.0
 13
0.0
 23
0.0
 33
0.0
 16
1.0
 26
0.0
 36
0.0
 17
0.0
 27
1.0
 37
0.0
 76
     0
330
1B
  0
LAYOUT
  5
26
102
{ACAD_REACTORS
330
1A
102
}
330
1A
100
AcDbPlotSettings
  1

  2
none_device
  4

  6

 40
0.0
 41
0.0
 42
0.0
 43
0.0
 44
0.0
 45
0.0
 46
0.0
 47
0.0
 48
0.0
 49
0.0
140
0.0
141
0.0
142
1.0
143
1.0
 70
   688
 72
     1
 73
     0
 74
     5
  7

 75
    16
147
1.0
148
0.0
149
0.0
100
AcDbLayout
  1
Layout2
 70
     1
 71
     2
 10
0.0
 20
0.0
 11
0.0
 21
0.0
 12
0.0
 22
0.0
 32
0.0
 14
0.0
 24
0.0
 34
0.0
 15
0.0
 25
0.0
 35
0.0
146
0.0
 13
0.0
 23
0.0
 33
0.0
 16
1.0
 26
0.0
 36
0.0
 17
0.0
 27
1.0
 37
0.0
 76
     0
330
23
  0
LAYOUT
  5
22
102
{ACAD_REACTORS
330
1A
102
}
330
1A
100
AcDbPlotSettings
  1

  2
none_device
  4
Letter_(8.50_x_11.00_Inches)
  6

 40
6.35
 41
6.35
 42
6.35000508
 43
6.35000508
 44
215.9
 45
279.4
 46
0.0
 47
0.0
 48
0.0
 49
0.0
140
0.0
141
0.0
142
1.0
143
1.0
 70
  1712
 72
     1
 73
     0
 74
     0
  7

 75
     0
147
1.0
148
0.0
149
0.0
100
AcDbLayout
  1
Model
 70
     1
 71
     0
 10
0.0
 20
0.0
 11
279.4
 21
215.9
 12
0.0
 22
0.0
 32
0.0
 14
0.0
 24
0.0
 34
0.0
 15
279.4
 25
215.9
 35
0.0
146
0.0
 13
0.0
 23
0.0
 33
0.0
 16
1.0
 26
0.0
 36
0.0
 17
0.0
 27
1.0
 37
0.0
 76
     0
330
1F
331
29
  0
MLINESTYLE
  5
18
102
{ACAD_REACTORS
330
17
102
}
330
17
100
AcDbMlineStyle
  2
Standard
 70
     0
  3

 62
   256
 51
90.0
 52
90.0
 71
     2
 49
0.5
 62
   256
  6
BYLAYER
 49
-0.5
 62
   256
  6
BYLAYER
  0
ACDBPLACEHOLDER
  5
F
102
{ACAD_REACTORS
330
E
102
}
330
E
  0
SCALE
  5
48
102
{ACAD_REACTORS
330
47
102
}
330
47
100
AcDbScale
 70
     0
300
1:1
140
1.0
141
1.0
290
     1
  0
SCALE
  5
49
102
{ACAD_REACTORS
330
47
102
}
330
47
100
AcDbScale
 70
     0
300
1:2
140
1.0
141
2.0
290
     0
  0
SCALE
  5
4A
102
{ACAD_REACTORS
330
47
102
}
330
47
100
AcDbScale
 70
     0
300
1:4
140
1.0
141
4.0
290
     0
  0
SCALE
  5
4B
102
{ACAD_REACTORS
330
47
102
}
330
47
100
AcDbScale
 70
     0
300
1:5
140
1.0
141
5.0
290
     0
  0
SCALE
  5
4C
102
{ACAD_REACTORS
330
47
102
}
330
47
100
AcDbScale
 70
     0
300
1:8
140
1.0
141
8.0
290
     0
  0
SCALE
  5
4D
102
{ACAD_REACTORS
330
47
102
}
330
47
100
AcDbScale
 70
     0
300
1:10
140
1.0
141
10.0
290
     0
  0
SCALE
  5
4E
102
{ACAD_REACTORS
330
47
102
}
330
47
100
AcDbScale
 70
     0
300
1:16
140
1.0
141
16.0
290
     0
  0
SCALE
  5
4F
102
{ACAD_REACTORS
330
47
102
}
330
47
100
AcDbScale
 70
     0
300
1:20
140
1.0
141
20.0
290
     0
  0
SCALE
  5
50
102
{ACAD_REACTORS
330
47
102
}
330
47
100
AcDbScale
 70
     0
300
1:30
140
1.0
141
30.0
290
     0
  0
SCALE
  5
51
102
{ACAD_REACTORS
330
47
102
}
330
47
100
AcDbScale
 70
     0
300
1:40
140
1.0
141
40.0
290
     0
  0
SCALE
  5
52
102
{ACAD_REACTORS
330
47
102
}
330
47
100
AcDbScale
 70
     0
300
1:50
140
1.0
141
50.0
290
     0
  0
SCALE
  5
53
102
{ACAD_REACTORS
330
47
102
}
330
47
100
AcDbScale
 70
     0
300
1:100
140
1.0
141
100.0
290
     0
  0
SCALE
  5
54
102
{ACAD_REACTORS
330
47
102
}
330
47
100
AcDbScale
 70
     0
300
2:1
140
2.0
141
1.0
290
     0
  0
SCALE
  5
55
102
{ACAD_REACTORS
330
47
102
}
330
47
100
AcDbScale
 70
     0
300
4:1
140
4.0
141
1.0
290
     0
  0
SCALE
  5
56
102
{ACAD_REACTORS
330
47
102
}
330
47
100
AcDbScale
 70
     0
300
8:1
140
8.0
141
1.0
290
     0
  0
SCALE
  5
57
102
{ACAD_REACTORS
330
47
102
}
330
47
100
AcDbScale
 70
     0
300
10:1
140
10.0
141
1.0
290
     0
  0
SCALE
  5
58
102
{ACAD_REACTORS
330
47
102
}
330
47
100
AcDbScale
 70
     0
300
100:1
140
100.0
141
1.0
290
     0
  0
SCALE
  5
59
102
{ACAD_REACTORS
330
47
102
}
330
47
100
AcDbScale
 70
     0
300
1/128" = 1'-0"
140
0.0078125
141
12.0
290
     0
  0
SCALE
  5
5A
102
{ACAD_REACTORS
330
47
102
}
330
47
100
AcDbScale
 70
     0
300
1/64" = 1'-0"
140
0.015625
141
12.0
290
     0
  0
SCALE
  5
5B
102
{ACAD_REACTORS
330
47
102
}
330
47
100
AcDbScale
 70
     0
300
1/32" = 1'-0"
140
0.03125
141
12.0
290
     0
  0
SCALE
  5
5C
102
{ACAD_REACTORS
330
47
102
}
330
47
100
AcDbScale
 70
     0
300
1/16" = 1'-0"
140
0.0625
141
12.0
290
     0
  0
SCALE
  5
5D
102
{ACAD_REACTORS
330
47
102
}
330
47
100
AcDbScale
 70
     0
300
3/32" = 1'-0"
140
0.09375
141
12.0
290
     0
  0
SCALE
  5
5E
102
{ACAD_REACTORS
330
47
102
}
330
47
100
AcDbScale
 70
     0
300
1/8" = 1'-0"
140
0.125
141
12.0
290
     0
  0
SCALE
  5
5F
102
{ACAD_REACTORS
330
47
102
}
330
47
100
AcDbScale
 70
     0
300
3/16" = 1'-0"
140
0.1875
141
12.0
290
     0
  0
SCALE
  5
60
102
{ACAD_REACTORS
330
47
102
}
330
47
100
AcDbScale
 70
     0
300
1/4" = 1'-0"
140
0.25
141
12.0
290
     0
  0
SCALE
  5
61
102
{ACAD_REACTORS
330
47
102
}
330
47
100
AcDbScale
 70
     0
300
3/8" = 1'-0"
140
0.375
141
12.0
290
     0
  0
SCALE
  5
62
102
{ACAD_REACTORS
330
47
102
}
330
47
100
AcDbScale
 70
     0
300
1/2" = 1'-0"
140
0.5
141
12.0
290
     0
  0
SCALE
  5
63
102
{ACAD_REACTORS
330
47
102
}
330
47
100
AcDbScale
 70
     0
300
3/4" = 1'-0"
140
0.75
141
12.0
290
     0
  0
SCALE
  5
64
102
{ACAD_REACTORS
330
47
102
}
330
47
100
AcDbScale
 70
     0
300
1" = 1'-0"
140
1.0
141
12.0
290
     0
  0
SCALE
  5
65
102
{ACAD_REACTORS
330
47
102
}
330
47
100
AcDbScale
 70
     0
300
1-1/2" = 1'-0"
140
1.5
141
12.0
290
     0
  0
SCALE
  5
66
102
{ACAD_REACTORS
330
47
102
}
330
47
100
AcDbScale
 70
     0
300
3" = 1'-0"
140
3.0
141
12.0
290
     0
  0
SCALE
  5
67
102
{ACAD_REACTORS
330
47
102
}
330
47
100
AcDbScale
 70
     0
300
6" = 1'-0"
140
6.0
141
12.0
290
     0
  0
SCALE
  5
68
102
{ACAD_REACTORS
330
47
102
}
330
47
100
AcDbScale
 70
     0
300
1'-0" = 1'-0"
140
12.0
141
12.0
290
     0
  0
ENDSEC
  0
EOF
